  0
SECTION
  2
HEADER
  9
$ACADVER
  1
AC1015
  9
$ACADMAINTVER
 70
     6
  9
$DWGCODEPAGE
  3
ANSI_1254
  9
$INSBASE
 10
0.0
 20
0.0
 30
0.0
  9
$EXTMIN
 10
0.0
 20
0.0
 30
0.0
  9
$EXTMAX
 10
279.4
 20
215.9
 30
0.0
  9
$LIMMIN
 10
0.0
 20
0.0
  9
$LIMMAX
 10
279.4
 20
215.9
  9
$ORTHOMODE
 70
     0
  9
$REGENMODE
 70
     1
  9
$FILLMODE
 70
     1
  9
$QTEXTMODE
 70
     0
  9
$MIRRTEXT
 70
     1
  9
$LTSCALE
 40
1.0
  9
$ATTMODE
 70
     1
  9
$TEXTSIZE
 40
3.5
  9
$TRACEWID
 40
1.0
  9
$TEXTSTYLE
  7
Standard
  9
$CLAYER
  8
0
  9
$CELTYPE
  6
ByLayer
  9
$CECOLOR
 62
   256
  9
$CELTSCALE
 40
1.0
  9
$DISPSILH
 70
     0
  9
$DIMSCALE
 40
1.0
  9
$DIMASZ
 40
3.5
  9
$DIMEXO
 40
1.0
  9
$DIMDLI
 40
3.75
  9
$DIMRND
 40
0.0
  9
$DIMDLE
 40
0.0
  9
$DIMEXE
 40
1.0
  9
$DIMTP
 40
0.0
  9
$DIMTM
 40
0.0
  9
$DIMTXT
 40
3.5
  9
$DIMCEN
 40
2.5
  9
$DIMTSZ
 40
0.0
  9
$DIMTOL
 70
     0
  9
$DIMLIM
 70
     0
  9
$DIMTIH
 70
     1
  9
$DIMTOH
 70
     1
  9
$DIMSE1
 70
     0
  9
$DIMSE2
 70
     0
  9
$DIMTAD
 70
     1
  9
$DIMZIN
 70
     0
  9
$DIMBLK
  1

  9
$DIMASO
 70
     1
  9
$DIMSHO
 70
     1
  9
$DIMPOST
  1

  9
$DIMAPOST
  1

  9
$DIMALT
 70
     0
  9
$DIMALTD
 70
     3
  9
$DIMALTF
 40
0.0393700787
  9
$DIMLFAC
 40
1.0
  9
$DIMTOFL
 70
     1
  9
$DIMTVP
 40
0.0
  9
$DIMTIX
 70
     0
  9
$DIMSOXD
 70
     0
  9
$DIMSAH
 70
     0
  9
$DIMBLK1
  1

  9
$DIMBLK2
  1

  9
$DIMSTYLE
  2
ISO-25
  9
$DIMCLRD
 70
     0
  9
$DIMCLRE
 70
     0
  9
$DIMCLRT
 70
     0
  9
$DIMTFAC
 40
1.0
  9
$DIMGAP
 40
1.524
  9
$DIMJUST
 70
     0
  9
$DIMSD1
 70
     0
  9
$DIMSD2
 70
     0
  9
$DIMTOLJ
 70
     0
  9
$DIMTZIN
 70
     0
  9
$DIMALTZ
 70
     0
  9
$DIMALTTZ
 70
     0
  9
$DIMUPT
 70
     0
  9
$DIMDEC
 70
     2
  9
$DIMTDEC
 70
     2
  9
$DIMALTU
 70
     2
  9
$DIMALTTD
 70
     3
  9
$DIMTXSTY
  7
Standard
  9
$DIMAUNIT
 70
     0
  9
$DIMADEC
 70
     2
  9
$DIMALTRND
 40
0.0
  9
$DIMAZIN
 70
     0
  9
$DIMDSEP
 70
    44
  9
$DIMATFIT
 70
     3
  9
$DIMFRAC
 70
     0
  9
$DIMLDRBLK
  1

  9
$DIMLUNIT
 70
     2
  9
$DIMLWD
 70
    -2
  9
$DIMLWE
 70
    -2
  9
$DIMTMOVE
 70
     0
  9
$LUNITS
 70
     2
  9
$LUPREC
 70
     2
  9
$SKETCHINC
 40
1.0
  9
$FILLETRAD
 40
10.0
  9
$AUNITS
 70
     0
  9
$AUPREC
 70
     2
  9
$MENU
  1
.
  9
$ELEVATION
 40
0.0
  9
$PELEVATION
 40
0.0
  9
$THICKNESS
 40
0.0
  9
$LIMCHECK
 70
     0
  9
$CHAMFERA
 40
0.0
  9
$CHAMFERB
 40
0.0
  9
$CHAMFERC
 40
0.0
  9
$CHAMFERD
 40
0.0
  9
$SKPOLY
 70
     0
  9
$TDCREATE
 40
2458985.698831169
  9
$TDUCREATE
 40
2458985.573831169
  9
$TDUPDATE
 40
2458985.698831435
  9
$TDUUPDATE
 40
2458985.573831435
  9
$TDINDWG
 40
0.0000000116
  9
$TDUSRTIMER
 40
0.0000000116
  9
$USRTIMER
 70
     1
  9
$ANGBASE
 50
0.0
  9
$ANGDIR
 70
     0
  9
$PDMODE
 70
     0
  9
$PDSIZE
 40
-1.0
  9
$PLINEWID
 40
0.0
  9
$SPLFRAME
 70
     0
  9
$SPLINETYPE
 70
     6
  9
$SPLINESEGS
 70
     8
  9
$HANDSEED
  5
EB
  9
$SURFTAB1
 70
     6
  9
$SURFTAB2
 70
     6
  9
$SURFTYPE
 70
     6
  9
$SURFU
 70
     6
  9
$SURFV
 70
     6
  9
$UCSBASE
  2

  9
$UCSNAME
  2

  9
$UCSORG
 10
0.0
 20
0.0
 30
0.0
  9
$UCSXDIR
 10
1.0
 20
0.0
 30
0.0
  9
$UCSYDIR
 10
0.0
 20
1.0
 30
0.0
  9
$UCSORTHOREF
  2

  9
$UCSORTHOVIEW
 70
     0
  9
$UCSORGTOP
 10
0.0
 20
0.0
 30
0.0
  9
$UCSORGBOTTOM
 10
0.0
 20
0.0
 30
0.0
  9
$UCSORGLEFT
 10
0.0
 20
0.0
 30
0.0
  9
$UCSORGRIGHT
 10
0.0
 20
0.0
 30
0.0
  9
$UCSORGFRONT
 10
0.0
 20
0.0
 30
0.0
  9
$UCSORGBACK
 10
0.0
 20
0.0
 30
0.0
  9
$PUCSBASE
  2

  9
$PUCSNAME
  2

  9
$PUCSORG
 10
0.0
 20
0.0
 30
0.0
  9
$PUCSXDIR
 10
1.0
 20
0.0
 30
0.0
  9
$PUCSYDIR
 10
0.0
 20
1.0
 30
0.0
  9
$PUCSORTHOREF
  2

  9
$PUCSORTHOVIEW
 70
     0
  9
$PUCSORGTOP
 10
0.0
 20
0.0
 30
0.0
  9
$PUCSORGBOTTOM
 10
0.0
 20
0.0
 30
0.0
  9
$PUCSORGLEFT
 10
0.0
 20
0.0
 30
0.0
  9
$PUCSORGRIGHT
 10
0.0
 20
0.0
 30
0.0
  9
$PUCSORGFRONT
 10
0.0
 20
0.0
 30
0.0
  9
$PUCSORGBACK
 10
0.0
 20
0.0
 30
0.0
  9
$USERI1
 70
     0
  9
$USERI2
 70
     0
  9
$USERI3
 70
     0
  9
$USERI4
 70
     0
  9
$USERI5
 70
     0
  9
$USERR1
 40
0.0
  9
$USERR2
 40
0.0
  9
$USERR3
 40
0.0
  9
$USERR4
 40
0.0
  9
$USERR5
 40
0.0
  9
$WORLDVIEW
 70
     1
  9
$SHADEDGE
 70
     3
  9
$SHADEDIF
 70
    70
  9
$TILEMODE
 70
     1
  9
$MAXACTVP
 70
    64
  9
$PINSBASE
 10
0.0
 20
0.0
 30
0.0
  9
$PLIMCHECK
 70
     0
  9
$PEXTMIN
 10
1.0000000000E+20
 20
1.0000000000E+20
 30
1.0000000000E+20
  9
$PEXTMAX
 10
-1.0000000000E+20
 20
-1.0000000000E+20
 30
-1.0000000000E+20
  9
$PLIMMIN
 10
0.0
 20
0.0
  9
$PLIMMAX
 10
420.0
 20
297.0
  9
$UNITMODE
 70
     0
  9
$VISRETAIN
 70
     1
  9
$PLINEGEN
 70
     0
  9
$PSLTSCALE
 70
     1
  9
$TREEDEPTH
 70
  3020
  9
$CMLSTYLE
  2
Standard
  9
$CMLJUST
 70
     0
  9
$CMLSCALE
 40
20.0
  9
$PROXYGRAPHICS
 70
     1
  9
$MEASUREMENT
 70
     1
  9
$CELWEIGHT
370
    -1
  9
$ENDCAPS
280
     0
  9
$JOINSTYLE
280
     0
  9
$LWDISPLAY
290
     1
  9
$INSUNITS
 70
     4
  9
$HYPERLINKBASE
  1

  9
$STYLESHEET
  1

  9
$XEDIT
290
     1
  9
$CEPSNTYPE
380
     0
  9
$PSTYLEMODE
290
     1
  9
$FINGERPRINTGUID
  2
{9b07b402-14c5-463b-ae61-ad75cd11b8d5}
  9
$VERSIONGUID
  2
{FAEB1C32-E019-11D5-929B-00C0DF256EC4}
  9
$EXTNAMES
290
     1
  9
$PSVPSCALE
 40
0.0
  9
$OLESTARTUP
290
     0
  0
ENDSEC
  0
SECTION
  2
CLASSES
  0
CLASS
  1
ACDBDICTIONARYWDFLT
  2
AcDbDictionaryWithDefault
  3
ObjectDBX Classes
 90
        0
280
     0
281
     0
  0
CLASS
  1
VISUALSTYLE
  2
AcDbVisualStyle
  3
ObjectDBX Classes
 90
     4095
280
     0
281
     0
  0
CLASS
  1
MATERIAL
  2
AcDbMaterial
  3
ObjectDBX Classes
 90
     1153
280
     0
281
     0
  0
CLASS
  1
SCALE
  2
AcDbScale
  3
ObjectDBX Classes
 90
     1153
280
     0
281
     0
  0
CLASS
  1
TABLESTYLE
  2
AcDbTableStyle
  3
ObjectDBX Classes
 90
     4095
280
     0
281
     0
  0
CLASS
  1
MLEADERSTYLE
  2
AcDbMLeaderStyle
  3
ACDB_MLEADERSTYLE_CLASS
 90
     4095
280
     0
281
     0
  0
CLASS
  1
SUN
  2
AcDbSun
  3
SCENEOE
 90
     1153
280
     0
281
     0
  0
CLASS
  1
ACDBPLACEHOLDER
  2
AcDbPlaceHolder
  3
ObjectDBX Classes
 90
        0
280
     0
281
     0
  0
CLASS
  1
LAYOUT
  2
AcDbLayout
  3
ObjectDBX Classes
 90
        0
280
     0
281
     0
  0
ENDSEC
  0
SECTION
  2
TABLES
  0
TABLE
  2
VPORT
  5
8
330
0
100
AcDbSymbolTable
 70
     1
  0
VPORT
  5
29
330
8
100
AcDbSymbolTableRecord
100
AcDbViewportTableRecord
  2
*Active
 70
     0
 10
0.0
 20
0.0
 11
1.0
 21
1.0
 12
139.7
 22
107.95
 13
0.0
 23
0.0
 14
10.0
 24
10.0
 15
10.0
 25
10.0
 16
0.0
 26
0.0
 36
1.0
 17
0.0
 27
0.0
 37
0.0
 40
215.9
 41
1.2941176471
 42
50.0
 43
0.0
 44
0.0
 50
0.0
 51
0.0
 71
     0
 72
  2000
 73
     1
 74
     3
 75
     0
 76
     0
 77
     0
 78
     0
281
     0
 65
     1
110
0.0
120
0.0
130
0.0
111
1.0
121
0.0
131
0.0
112
0.0
122
1.0
132
0.0
 79
     0
146
0.0
  0
ENDTAB
  0
TABLE
  2
LTYPE
  5
5
330
0
100
AcDbSymbolTable
 70
     6
  0
LTYPE
  5
14
330
5
100
AcDbSymbolTableRecord
100
AcDbLinetypeTableRecord
  2
ByBlock
 70
     0
  3

 72
    65
 73
     0
 40
0.0
  0
LTYPE
  5
15
330
5
100
AcDbSymbolTableRecord
100
AcDbLinetypeTableRecord
  2
ByLayer
 70
     0
  3

 72
    65
 73
     0
 40
0.0
  0
LTYPE
  5
16
330
5
100
AcDbSymbolTableRecord
100
AcDbLinetypeTableRecord
  2
Continuous
 70
     0
  3
Solid line
 72
    65
 73
     0
 40
0.0
  0
LTYPE
  5
6E
330
5
100
AcDbSymbolTableRecord
100
AcDbLinetypeTableRecord
  2
HIDDEN
 70
     0
  3
Hidden __ __ __ __ __ __ __ __ __ __ __ __ __ __
 72
    65
 73
     2
 40
1.905
 49
1.27
 74
     0
 49
-0.635
 74
     0
  0
LTYPE
  5
6F
330
5
100
AcDbSymbolTableRecord
100
AcDbLinetypeTableRecord
  2
PHANTOM
 70
     0
  3
Phantom ______  __  __  ______  __  __  ______
 72
    65
 73
     6
 40
12.7
 49
6.35
 74
     0
 49
-1.27
 74
     0
 49
1.27
 74
     0
 49
-1.27
 74
     0
 49
1.27
 74
     0
 49
-1.27
 74
     0
  0
LTYPE
  5
70
330
5
100
AcDbSymbolTableRecord
100
AcDbLinetypeTableRecord
  2
CENTER
 70
     0
  3
Center ____ _ ____ _ ____ _ ____ _ ____ _ ____
 72
    65
 73
     4
 40
10.16
 49
6.35
 74
     0
 49
-1.27
 74
     0
 49
1.27
 74
     0
 49
-1.27
 74
     0
  0
LTYPE
  5
71
330
5
100
AcDbSymbolTableRecord
100
AcDbLinetypeTableRecord
  2
CENTERX2
 70
     0
  3
Center (2x) ________  __  ________  __  _____
 72
    65
 73
     4
 40
20.32
 49
12.7
 74
     0
 49
-2.54
 74
     0
 49
2.54
 74
     0
 49
-2.54
 74
     0
  0
LTYPE
  5
72
330
5
100
AcDbSymbolTableRecord
100
AcDbLinetypeTableRecord
  2
DOT2
 70
     0
  3
Dot (.5x) ........................................
 72
    65
 73
     2
 40
0.635
 49
0.0
 74
     0
 49
-0.635
 74
     0
  0
ENDTAB
  0
TABLE
  2
LAYER
  5
2
330
0
100
AcDbSymbolTable
 70
    17
  0
LAYER
  5
10
330
2
100
AcDbSymbolTableRecord
100
AcDbLayerTableRecord
  2
0
 70
     0
 62
     7
  6
Continuous
370
    -3
390
F
  0
LAYER
  5
73
330
2
100
AcDbSymbolTableRecord
100
AcDbLayerTableRecord
  2
FORMAT
 70
     0
 62
     7
  6
Continuous
370
    -3
390
F
  0
LAYER
  5
74
330
2
100
AcDbSymbolTableRecord
100
AcDbLayerTableRecord
  2
YARDIMCI_GEOMETRI
 70
     0
 62
    -6
  6
Continuous
290
     0
370
    -3
390
F
  0
LAYER
  5
75
330
2
100
AcDbSymbolTableRecord
100
AcDbLayerTableRecord
  2
SAYFA_CERCEVESI
 70
     0
 62
     7
  6
Continuous
370
    25
390
F
  0
LAYER
  5
76
330
2
100
AcDbSymbolTableRecord
100
AcDbLayerTableRecord
  2
ANTET
 70
     0
 62
     7
  6
Continuous
370
    -3
390
F
  0
LAYER
  5
77
330
2
100
AcDbSymbolTableRecord
100
AcDbLayerTableRecord
  2
OLCU
 70
     0
 62
   150
  6
Continuous
370
    -3
390
F
  0
LAYER
  5
78
330
2
100
AcDbSymbolTableRecord
100
AcDbLayerTableRecord
  2
METIN
 70
     0
 62
    96
  6
Continuous
370
    -3
390
F
  0
LAYER
  5
79
330
2
100
AcDbSymbolTableRecord
100
AcDbLayerTableRecord
  2
BALON
 70
     0
 62
     5
  6
Continuous
370
    -3
390
F
  0
LAYER
  5
7A
330
2
100
AcDbSymbolTableRecord
100
AcDbLayerTableRecord
  2
VURGU
 70
     0
 62
     7
  6
Continuous
370
    -3
390
F
  0
LAYER
  5
7B
330
2
100
AcDbSymbolTableRecord
100
AcDbLayerTableRecord
  2
SILIK
 70
     0
 62
     7
  6
Continuous
370
    -3
390
F
  0
LAYER
  5
7C
330
2
100
AcDbSymbolTableRecord
100
AcDbLayerTableRecord
  2
MODEL
 70
     0
 62
     7
  6
Continuous
370
    -3
390
F
  0
LAYER
  5
7D
330
2
100
AcDbSymbolTableRecord
100
AcDbLayerTableRecord
  2
DETAYLANDıRMA
 70
     0
 62
   190
  6
Continuous
370
    -3
390
F
  0
LAYER
  5
7E
330
2
100
AcDbSymbolTableRecord
100
AcDbLayerTableRecord
  2
TOLERANS
 70
     0
 62
   230
  6
Continuous
370
    -3
390
F
  0
LAYER
  5
7F
330
2
100
AcDbSymbolTableRecord
100
AcDbLayerTableRecord
  2
MERKEZ_CIZGILERI
 70
     0
 62
    30
  6
Continuous
370
    -3
390
F
  0
LAYER
  5
80
330
2
100
AcDbSymbolTableRecord
100
AcDbLayerTableRecord
  2
KESIT-DETAY_CIZGILERI
 70
     0
 62
     7
  6
Continuous
370
    -3
390
F
  0
LAYER
  5
81
330
2
100
AcDbSymbolTableRecord
100
AcDbLayerTableRecord
  2
\U+041E\U+0421\U+0415\U+0412\U+042B\U+0415
 70
     0
 62
     7
  6
Continuous
370
    -3
390
F
  0
LAYER
  5
82
330
2
100
AcDbSymbolTableRecord
100
AcDbLayerTableRecord
  2
\U+0412\U+041E\U+0414\U+042F\U+041D\U+042B\U+0415_\U+0417\U+041D\U+0410\U+041A\U+0418
 70
     0
 62
    11
  6
Continuous
370
    -3
390
F
  0
ENDTAB
  0
TABLE
  2
STYLE
  5
3
330
0
100
AcDbSymbolTable
 70
     1
  0
STYLE
  5
11
330
3
100
AcDbSymbolTableRecord
100
AcDbTextStyleTableRecord
  2
Standard
 70
     0
 40
0.0
 41
1.0
 50
0.0
 71
     0
 42
3.5
  3
txt
  4

  0
ENDTAB
  0
TABLE
  2
VIEW
  5
6
330
0
100
AcDbSymbolTable
 70
     0
  0
ENDTAB
  0
TABLE
  2
UCS
  5
7
330
0
100
AcDbSymbolTable
 70
     0
  0
ENDTAB
  0
TABLE
  2
APPID
  5
9
330
0
100
AcDbSymbolTable
 70
     1
  0
APPID
  5
12
330
9
100
AcDbSymbolTableRecord
100
AcDbRegAppTableRecord
  2
ACAD
 70
     0
  0
ENDTAB
  0
TABLE
  2
DIMSTYLE
  5
A
330
0
100
AcDbSymbolTable
 70
     1
100
AcDbDimStyleTable
  0
DIMSTYLE
105
27
330
A
100
AcDbSymbolTableRecord
100
AcDbDimStyleTableRecord
  2
ISO-25
 70
     0
 41
2.5
 42
0.625
 43
3.75
 44
1.25
 73
     0
 74
     0
 77
     1
 78
     8
140
2.5
141
2.5
143
0.0393700787
147
0.625
171
     3
172
     1
178
     0
271
     2
272
     2
274
     3
278
    44
283
     0
284
     8
340
11
  0
ENDTAB
  0
TABLE
  2
BLOCK_RECORD
  5
1
330
0
100
AcDbSymbolTable
 70
     2
  0
BLOCK_RECORD
  5
1F
330
1
100
AcDbSymbolTableRecord
100
AcDbBlockTableRecord
  2
*Model_Space
340
22
  0
BLOCK_RECORD
  5
1B
330
1
100
AcDbSymbolTableRecord
100
AcDbBlockTableRecord
  2
*Paper_Space
340
1E
  0
BLOCK_RECORD
  5
23
330
1
100
AcDbSymbolTableRecord
100
AcDbBlockTableRecord
  2
*Paper_Space0
340
26
  0
BLOCK_RECORD
  5
88
330
1
100
AcDbSymbolTableRecord
100
AcDbBlockTableRecord
  2
SW_CENTERMARKSYMBOL_0
340
0
102
{BLKREFS
331
93
102
}
  0
ENDTAB
  0
ENDSEC
  0
SECTION
  2
BLOCKS
  0
BLOCK
  5
20
330
1F
100
AcDbEntity
  8
0
100
AcDbBlockBegin
  2
*Model_Space
 70
     0
 10
0.0
 20
0.0
 30
0.0
  3
*Model_Space
  1

  0
ENDBLK
  5
21
330
1F
100
AcDbEntity
  8
0
100
AcDbBlockEnd
  0
BLOCK
  5
1C
330
1B
100
AcDbEntity
 67
     1
  8
0
100
AcDbBlockBegin
  2
*Paper_Space
 70
     0
 10
0.0
 20
0.0
 30
0.0
  3
*Paper_Space
  1

  0
ENDBLK
  5
1D
330
1B
100
AcDbEntity
 67
     1
  8
0
100
AcDbBlockEnd
  0
BLOCK
  5
24
330
23
100
AcDbEntity
  8
0
100
AcDbBlockBegin
  2
*Paper_Space0
 70
     0
 10
0.0
 20
0.0
 30
0.0
  3
*Paper_Space0
  1

  0
ENDBLK
  5
25
330
23
100
AcDbEntity
  8
0
100
AcDbBlockEnd
  0
BLOCK
  5
89
330
88
100
AcDbEntity
  8
0
100
AcDbBlockBegin
  2
SW_CENTERMARKSYMBOL_0
 70
     0
 10
0.0
 20
0.0
 30
0.0
  3
SW_CENTERMARKSYMBOL_0
  1

  0
LINE
  5
8B
330
88
100
AcDbEntity
  8
FORMAT
 62
     0
100
AcDbLine
 10
0.0
 20
0.0
 30
0.0
 11
0.0
 21
2.5
 31
0.0
  0
LINE
  5
8C
330
88
100
AcDbEntity
  8
FORMAT
 62
     0
100
AcDbLine
 10
0.0
 20
0.0
 30
0.0
 11
-2.5
 21
0.0
 31
0.0
  0
LINE
  5
8D
330
88
100
AcDbEntity
  8
FORMAT
 62
     0
100
AcDbLine
 10
0.0
 20
0.0
 30
0.0
 11
0.0
 21
-2.5
 31
0.0
  0
LINE
  5
8E
330
88
100
AcDbEntity
  8
FORMAT
 62
     0
100
AcDbLine
 10
0.0
 20
0.0
 30
0.0
 11
2.5
 21
0.0
 31
0.0
  0
LINE
  5
8F
330
88
100
AcDbEntity
  8
FORMAT
 62
     0
100
AcDbLine
 10
0.0
 20
5.0
 30
0.0
 11
0.0
 21
47.5
 31
0.0
  0
LINE
  5
90
330
88
100
AcDbEntity
  8
FORMAT
 62
     0
100
AcDbLine
 10
-5.0
 20
0.0
 30
0.0
 11
-47.5
 21
0.0
 31
0.0
  0
LINE
  5
91
330
88
100
AcDbEntity
  8
FORMAT
 62
     0
100
AcDbLine
 10
0.0
 20
-5.0
 30
0.0
 11
0.0
 21
-47.5
 31
0.0
  0
LINE
  5
92
330
88
100
AcDbEntity
  8
FORMAT
 62
     0
100
AcDbLine
 10
5.0
 20
0.0
 30
0.0
 11
47.5
 21
0.0
 31
0.0
  0
ENDBLK
  5
8A
330
88
100
AcDbEntity
  8
0
100
AcDbBlockEnd
  0
ENDSEC
  0
SECTION
  2
ENTITIES
  0
CIRCLE
  5
83
330
1F
100
AcDbEntity
  8
0
  6
Continuous
 62
     7
370
    25
100
AcDbCircle
 10
139.395004093
 20
107.5851680021
 30
0.0
 40
45.0
  0
CIRCLE
  5
84
330
1F
100
AcDbEntity
  8
0
  6
Continuous
 62
     7
370
    25
100
AcDbCircle
 10
139.395004093
 20
107.5851680021
 30
0.0
 40
36.80000000000001
  0
CIRCLE
  5
85
330
1F
100
AcDbEntity
  8
0
  6
Continuous
 62
     7
370
    25
100
AcDbCircle
 10
139.395004093
 20
107.5851680021
 30
0.0
 40
36.74679567682428
  0
CIRCLE
  5
86
330
1F
100
AcDbEntity
  8
0
  6
Continuous
 62
     7
370
    25
100
AcDbCircle
 10
139.395004093
 20
107.5851680021
 30
0.0
 40
30.75320432317575
  0
CIRCLE
  5
87
330
1F
100
AcDbEntity
  8
0
  6
Continuous
 62
     7
370
    25
100
AcDbCircle
 10
139.395004093
 20
107.5851680021
 30
0.0
 40
30.7
  0
INSERT
  5
93
330
1F
100
AcDbEntity
  8
FORMAT
 62
     7
100
AcDbBlockReference
  2
SW_CENTERMARKSYMBOL_0
 10
139.395004093
 20
107.5851680021
 30
0.0
  0
LINE
  5
94
330
1F
100
AcDbEntity
  8
0
  6
Continuous
 62
     7
370
    25
100
AcDbLine
 10
-81.1637528069
 20
152.5851697903
 30
0.0
 11
-160.0174791939
 21
152.5851697903
 31
0.0
  0
LINE
  5
95
330
1F
100
AcDbEntity
  8
0
  6
Continuous
 62
     7
370
    25
100
AcDbLine
 10
-160.0174791939
 20
62.585166214
 30
0.0
 11
-81.1637528069
 21
62.585166214
 31
0.0
  0
ARC
  5
96
330
1F
100
AcDbEntity
  8
0
  6
Continuous
 62
     7
370
    25
100
AcDbCircle
 10
-81.1637528369
 20
150.5851680021
 30
0.0
 40
2.0
100
AcDbArc
 50
81.634113876
 51
90.0
  0
ARC
  5
97
330
1F
100
AcDbEntity
  8
0
  6
Continuous
 62
     7
370
    25
100
AcDbCircle
 10
-81.1637528369
 20
64.5851680021
 30
0.0
 40
2.000000000000007
100
AcDbArc
 50
270.0
 51
278.365886124
  0
LINE
  5
98
330
1F
100
AcDbEntity
  8
0
  6
Continuous
 62
     7
370
    25
100
AcDbLine
 10
-80.8727647938
 20
62.6064487975
 30
0.0
 11
-30.1621965892
 21
70.0638876538
 31
0.0
  0
LINE
  5
99
330
1F
100
AcDbEntity
  8
0
  6
Continuous
 62
     7
370
    25
100
AcDbLine
 10
-30.1621965892
 20
145.1064483504
 30
0.0
 11
-80.8727647938
 21
152.5638872068
 31
0.0
  0
ARC
  5
9A
330
1F
100
AcDbEntity
  8
0
  6
Continuous
 62
     7
370
    25
100
AcDbCircle
 10
-29.871208393
 20
147.0851680021
 30
0.0
 40
2.000000000000022
100
AcDbArc
 50
261.634113876
 51
270.0
  0
ARC
  5
9B
330
1F
100
AcDbEntity
  8
0
  6
Continuous
 62
     7
370
    25
100
AcDbCircle
 10
-29.871208393
 20
68.0851680021
 30
0.0
 40
2.000000000000008
100
AcDbArc
 50
90.0
 51
98.365886124
  0
LINE
  5
9C
330
1F
100
AcDbEntity
  8
0
  6
Continuous
 62
     7
370
    25
100
AcDbLine
 10
39.9825163357
 20
145.0851694922
 30
0.0
 11
-29.8712085761
 21
145.0851694922
 31
0.0
  0
LINE
  5
9D
330
1F
100
AcDbEntity
  8
0
  6
Continuous
 62
     7
370
    25
100
AcDbLine
 10
-29.8712085761
 20
70.085166512
 30
0.0
 11
39.9825163357
 21
70.085166512
 31
0.0
  0
LINE
  5
9E
330
1F
100
AcDbEntity
  8
0
  6
Continuous
 62
     7
370
    25
100
AcDbLine
 10
-160.0174791939
 20
152.5851697903
 30
0.0
 11
-160.0174791939
 21
62.585166214
 31
0.0
  0
LINE
  5
9F
330
1F
100
AcDbEntity
  8
0
  6
Continuous
 62
     7
370
    25
100
AcDbLine
 10
39.9825163357
 20
145.0851694922
 30
0.0
 11
39.9825163357
 21
70.085166512
 31
0.0
  0
LINE
  5
A0
330
1F
100
AcDbEntity
  8
0
  6
Continuous
 62
     1
370
    25
100
AcDbLine
 10
-81.1637528069
 20
152.5851697903
 30
0.0
 11
-81.1637528069
 21
62.585166214
 31
0.0
  0
LINE
  5
A1
330
1F
100
AcDbEntity
  8
0
  6
Continuous
 62
     1
370
    25
100
AcDbLine
 10
-80.8727647938
 20
152.5638872068
 30
0.0
 11
-80.8727647938
 21
62.6064487975
 31
0.0
  0
LINE
  5
A2
330
1F
100
AcDbEntity
  8
0
  6
Continuous
 62
     1
370
    25
100
AcDbLine
 10
-30.1621965892
 20
145.1064483504
 30
0.0
 11
-30.1621965892
 21
70.0638876538
 31
0.0
  0
LINE
  5
A3
330
1F
100
AcDbEntity
  8
0
  6
Continuous
 62
     1
370
    25
100
AcDbLine
 10
-29.8712085761
 20
145.0851694922
 30
0.0
 11
-29.8712085761
 21
70.085166512
 31
0.0
  0
LINE
  5
A4
330
1F
100
AcDbEntity
  8
0
  6
Continuous
 62
     7
370
    25
100
AcDbLine
 10
367.3712762459
 20
62.585166214
 30
0.0
 11
446.2250026329
 21
62.585166214
 31
0.0
  0
LINE
  5
A5
330
1F
100
AcDbEntity
  8
0
  6
Continuous
 62
     7
370
    25
100
AcDbLine
 10
446.2250026329
 20
152.5851697903
 30
0.0
 11
367.3712762459
 21
152.5851697903
 31
0.0
  0
ARC
  5
A6
330
1F
100
AcDbEntity
  8
0
  6
Continuous
 62
     7
370
    25
100
AcDbCircle
 10
367.3712762758
 20
64.5851680021
 30
0.0
 40
2.000000000000007
100
AcDbArc
 50
261.634113876
 51
270.0
  0
ARC
  5
A7
330
1F
100
AcDbEntity
  8
0
  6
Continuous
 62
     7
370
    25
100
AcDbCircle
 10
367.3712762758
 20
150.5851680021
 30
0.0
 40
2.0
100
AcDbArc
 50
90.0
 51
98.365886124
  0
LINE
  5
A8
330
1F
100
AcDbEntity
  8
0
  6
Continuous
 62
     7
370
    25
100
AcDbLine
 10
367.0802882327
 20
152.5638872068
 30
0.0
 11
316.3697200282
 21
145.1064483504
 31
0.0
  0
LINE
  5
A9
330
1F
100
AcDbEntity
  8
0
  6
Continuous
 62
     7
370
    25
100
AcDbLine
 10
316.3697200282
 20
70.0638876538
 30
0.0
 11
367.0802882327
 21
62.6064487975
 31
0.0
  0
ARC
  5
AA
330
1F
100
AcDbEntity
  8
0
  6
Continuous
 62
     7
370
    25
100
AcDbCircle
 10
316.0787318319
 20
68.0851680021
 30
0.0
 40
2.000000000000007
100
AcDbArc
 50
81.634113876
 51
90.0
  0
ARC
  5
AB
330
1F
100
AcDbEntity
  8
0
  6
Continuous
 62
     7
370
    25
100
AcDbCircle
 10
316.0787318319
 20
147.0851680021
 30
0.0
 40
2.000000000000021
100
AcDbArc
 50
270.0
 51
278.365886124
  0
LINE
  5
AC
330
1F
100
AcDbEntity
  8
0
  6
Continuous
 62
     7
370
    25
100
AcDbLine
 10
246.2250071033
 20
70.085166512
 30
0.0
 11
316.0787320151
 21
70.085166512
 31
0.0
  0
LINE
  5
AD
330
1F
100
AcDbEntity
  8
0
  6
Continuous
 62
     7
370
    25
100
AcDbLine
 10
316.0787320151
 20
145.0851694922
 30
0.0
 11
246.2250071033
 21
145.0851694922
 31
0.0
  0
LINE
  5
AE
330
1F
100
AcDbEntity
  8
0
  6
Continuous
 62
     7
370
    25
100
AcDbLine
 10
446.2250026329
 20
107.5851680021
 30
0.0
 11
446.2250026329
 21
152.5851697903
 31
0.0
  0
LINE
  5
AF
330
1F
100
AcDbEntity
  8
0
  6
Continuous
 62
     7
370
    25
100
AcDbLine
 10
446.2250026329
 20
62.585166214
 30
0.0
 11
446.2250026329
 21
107.5851680021
 31
0.0
  0
LINE
  5
B0
330
1F
100
AcDbEntity
  8
0
  6
Continuous
 62
     7
370
    25
100
AcDbLine
 10
246.2250071033
 20
107.5851680021
 30
0.0
 11
246.2250071033
 21
145.0851694922
 31
0.0
  0
LINE
  5
B1
330
1F
100
AcDbEntity
  8
0
  6
Continuous
 62
     7
370
    25
100
AcDbLine
 10
246.2250071033
 20
70.085166512
 30
0.0
 11
246.2250071033
 21
107.5851680021
 31
0.0
  0
LINE
  5
B2
330
1F
100
AcDbEntity
  8
0
  6
Continuous
 62
     1
370
    25
100
AcDbLine
 10
367.3712762459
 20
107.5851680021
 30
0.0
 11
367.3712762459
 21
152.5851697903
 31
0.0
  0
LINE
  5
B3
330
1F
100
AcDbEntity
  8
0
  6
Continuous
 62
     1
370
    25
100
AcDbLine
 10
367.3712762459
 20
62.585166214
 30
0.0
 11
367.3712762459
 21
107.5851680021
 31
0.0
  0
LINE
  5
B4
330
1F
100
AcDbEntity
  8
0
  6
Continuous
 62
     1
370
    25
100
AcDbLine
 10
367.0802882327
 20
107.5851680021
 30
0.0
 11
367.0802882327
 21
152.5638872068
 31
0.0
  0
LINE
  5
B5
330
1F
100
AcDbEntity
  8
0
  6
Continuous
 62
     1
370
    25
100
AcDbLine
 10
367.0802882327
 20
62.6064487975
 30
0.0
 11
367.0802882327
 21
107.5851680021
 31
0.0
  0
LINE
  5
B6
330
1F
100
AcDbEntity
  8
0
  6
Continuous
 62
     1
370
    25
100
AcDbLine
 10
316.3697200282
 20
107.5851680021
 30
0.0
 11
316.3697200282
 21
145.1064483504
 31
0.0
  0
LINE
  5
B7
330
1F
100
AcDbEntity
  8
0
  6
Continuous
 62
     1
370
    25
100
AcDbLine
 10
316.3697200282
 20
70.0638876538
 30
0.0
 11
316.3697200282
 21
107.5851680021
 31
0.0
  0
LINE
  5
B8
330
1F
100
AcDbEntity
  8
0
  6
Continuous
 62
     1
370
    25
100
AcDbLine
 10
316.0787320151
 20
107.5851680021
 30
0.0
 11
316.0787320151
 21
145.0851694922
 31
0.0
  0
LINE
  5
B9
330
1F
100
AcDbEntity
  8
0
  6
Continuous
 62
     1
370
    25
100
AcDbLine
 10
316.0787320151
 20
70.085166512
 30
0.0
 11
316.0787320151
 21
107.5851680021
 31
0.0
  0
LINE
  5
BA
330
1F
100
AcDbEntity
  8
0
  6
Continuous
 62
     7
370
    25
100
AcDbLine
 10
184.3950058812
 20
312.7495201824
 30
0.0
 11
184.3950058812
 21
391.6032465694
 31
0.0
  0
LINE
  5
BB
330
1F
100
AcDbEntity
  8
0
  6
Continuous
 62
     7
370
    25
100
AcDbLine
 10
94.3950023049
 20
391.6032465694
 30
0.0
 11
94.3950023049
 21
312.7495201824
 31
0.0
  0
ARC
  5
BC
330
1F
100
AcDbEntity
  8
0
  6
Continuous
 62
     7
370
    25
100
AcDbCircle
 10
182.395004093
 20
312.7495202124
 30
0.0
 40
2.000000000000021
100
AcDbArc
 50
351.634113876
 51
0.0
  0
ARC
  5
BD
330
1F
100
AcDbEntity
  8
0
  6
Continuous
 62
     7
370
    25
100
AcDbCircle
 10
96.395004093
 20
312.7495202124
 30
0.0
 40
2.0
100
AcDbArc
 50
180.0
 51
188.365886124
  0
LINE
  5
BE
330
1F
100
AcDbEntity
  8
0
  6
Continuous
 62
     7
370
    25
100
AcDbLine
 10
94.4162848884
 20
312.4585321693
 30
0.0
 11
101.8737237447
 21
261.7479639647
 31
0.0
  0
LINE
  5
BF
330
1F
100
AcDbEntity
  8
0
  6
Continuous
 62
     7
370
    25
100
AcDbLine
 10
176.9162844413
 20
261.7479639647
 30
0.0
 11
184.3737232977
 21
312.4585321693
 31
0.0
  0
ARC
  5
C0
330
1F
100
AcDbEntity
  8
0
  6
Continuous
 62
     7
370
    25
100
AcDbCircle
 10
178.895004093
 20
261.4569757685
 30
0.0
 40
2.0
100
AcDbArc
 50
171.634113876
 51
180.0
  0
ARC
  5
C1
330
1F
100
AcDbEntity
  8
0
  6
Continuous
 62
     7
370
    25
100
AcDbCircle
 10
99.895004093
 20
261.4569757685
 30
0.0
 40
2.0
100
AcDbArc
 50
0.0
 51
8.365886124
  0
LINE
  5
C2
330
1F
100
AcDbEntity
  8
0
  6
Continuous
 62
     7
370
    25
100
AcDbLine
 10
176.8950055832
 20
191.6032510398
 30
0.0
 11
176.8950055832
 21
261.4569759516
 31
0.0
  0
LINE
  5
C3
330
1F
100
AcDbEntity
  8
0
  6
Continuous
 62
     7
370
    25
100
AcDbLine
 10
101.8950026029
 20
261.4569759516
 30
0.0
 11
101.8950026029
 21
191.6032510398
 31
0.0
  0
LINE
  5
C4
330
1F
100
AcDbEntity
  8
0
  6
Continuous
 62
     7
370
    25
100
AcDbLine
 10
184.3950058812
 20
391.6032465694
 30
0.0
 11
94.3950023049
 21
391.6032465694
 31
0.0
  0
LINE
  5
C5
330
1F
100
AcDbEntity
  8
0
  6
Continuous
 62
     7
370
    25
100
AcDbLine
 10
176.8950055832
 20
191.6032510398
 30
0.0
 11
101.8950026029
 21
191.6032510398
 31
0.0
  0
LINE
  5
C6
330
1F
100
AcDbEntity
  8
0
  6
Continuous
 62
     1
370
    25
100
AcDbLine
 10
184.3950058812
 20
312.7495201824
 30
0.0
 11
94.3950023049
 21
312.7495201824
 31
0.0
  0
LINE
  5
C7
330
1F
100
AcDbEntity
  8
0
  6
Continuous
 62
     1
370
    25
100
AcDbLine
 10
184.3737232977
 20
312.4585321693
 30
0.0
 11
94.4162848884
 21
312.4585321693
 31
0.0
  0
LINE
  5
C8
330
1F
100
AcDbEntity
  8
0
  6
Continuous
 62
     1
370
    25
100
AcDbLine
 10
176.9162844413
 20
261.7479639647
 30
0.0
 11
101.8737237447
 21
261.7479639647
 31
0.0
  0
LINE
  5
C9
330
1F
100
AcDbEntity
  8
0
  6
Continuous
 62
     1
370
    25
100
AcDbLine
 10
176.8950055832
 20
261.4569759516
 30
0.0
 11
101.8950026029
 21
261.4569759516
 31
0.0
  0
LINE
  5
CA
330
1F
100
AcDbEntity
  8
0
  6
Continuous
 62
     7
370
    25
100
AcDbLine
 10
94.3950023049
 20
-119.8365582692
 30
0.0
 11
94.3950023049
 21
-198.6902846562
 31
0.0
  0
LINE
  5
CB
330
1F
100
AcDbEntity
  8
0
  6
Continuous
 62
     7
370
    25
100
AcDbLine
 10
184.3950058812
 20
-198.6902846562
 30
0.0
 11
184.3950058812
 21
-119.8365582692
 31
0.0
  0
ARC
  5
CC
330
1F
100
AcDbEntity
  8
0
  6
Continuous
 62
     7
370
    25
100
AcDbCircle
 10
96.395004093
 20
-119.8365582991
 30
0.0
 40
2.0
100
AcDbArc
 50
171.634113876
 51
180.0
  0
ARC
  5
CD
330
1F
100
AcDbEntity
  8
0
  6
Continuous
 62
     7
370
    25
100
AcDbCircle
 10
182.395004093
 20
-119.8365582991
 30
0.0
 40
2.000000000000021
100
AcDbArc
 50
0.0
 51
8.365886124
  0
LINE
  5
CE
330
1F
100
AcDbEntity
  8
0
  6
Continuous
 62
     7
370
    25
100
AcDbLine
 10
184.3737232977
 20
-119.545570256
 30
0.0
 11
176.9162844413
 21
-68.8350020515
 31
0.0
  0
LINE
  5
CF
330
1F
100
AcDbEntity
  8
0
  6
Continuous
 62
     7
370
    25
100
AcDbLine
 10
101.8737237447
 20
-68.8350020515
 30
0.0
 11
94.4162848884
 21
-119.545570256
 31
0.0
  0
ARC
  5
D0
330
1F
100
AcDbEntity
  8
0
  6
Continuous
 62
     7
370
    25
100
AcDbCircle
 10
99.895004093
 20
-68.5440138552
 30
0.0
 40
2.000000000000009
100
AcDbArc
 50
351.634113876
 51
0.0
  0
ARC
  5
D1
330
1F
100
AcDbEntity
  8
0
  6
Continuous
 62
     7
370
    25
100
AcDbCircle
 10
178.895004093
 20
-68.5440138552
 30
0.0
 40
2.0
100
AcDbArc
 50
180.0
 51
188.365886124
  0
LINE
  5
D2
330
1F
100
AcDbEntity
  8
0
  6
Continuous
 62
     7
370
    25
100
AcDbLine
 10
101.8950026029
 20
1.3097108734
 30
0.0
 11
101.8950026029
 21
-68.5440140384
 31
0.0
  0
LINE
  5
D3
330
1F
100
AcDbEntity
  8
0
  6
Continuous
 62
     7
370
    25
100
AcDbLine
 10
176.8950055832
 20
-68.5440140384
 30
0.0
 11
176.8950055832
 21
1.3097108734
 31
0.0
  0
LINE
  5
D4
330
1F
100
AcDbEntity
  8
0
  6
Continuous
 62
     7
370
    25
100
AcDbLine
 10
94.3950023049
 20
-198.6902846562
 30
0.0
 11
184.3950058812
 21
-198.6902846562
 31
0.0
  0
LINE
  5
D5
330
1F
100
AcDbEntity
  8
0
  6
Continuous
 62
     7
370
    25
100
AcDbLine
 10
101.8950026029
 20
1.3097108734
 30
0.0
 11
176.8950055832
 21
1.3097108734
 31
0.0
  0
LINE
  5
D6
330
1F
100
AcDbEntity
  8
0
  6
Continuous
 62
     1
370
    25
100
AcDbLine
 10
94.3950023049
 20
-119.8365582692
 30
0.0
 11
184.3950058812
 21
-119.8365582692
 31
0.0
  0
LINE
  5
D7
330
1F
100
AcDbEntity
  8
0
  6
Continuous
 62
     1
370
    25
100
AcDbLine
 10
94.4162848884
 20
-119.545570256
 30
0.0
 11
184.3737232977
 21
-119.545570256
 31
0.0
  0
LINE
  5
D8
330
1F
100
AcDbEntity
  8
0
  6
Continuous
 62
     1
370
    25
100
AcDbLine
 10
101.8737237447
 20
-68.8350020515
 30
0.0
 11
176.9162844413
 21
-68.8350020515
 31
0.0
  0
LINE
  5
D9
330
1F
100
AcDbEntity
  8
0
  6
Continuous
 62
     1
370
    25
100
AcDbLine
 10
101.8950026029
 20
-68.5440140384
 30
0.0
 11
176.8950055832
 21
-68.5440140384
 31
0.0
  0
LINE
  5
DA
330
1F
100
AcDbEntity
  8
0
  6
Continuous
 62
     7
370
    25
100
AcDbLine
 10
350.6444905274
 20
-21.0295369994
 30
0.0
 11
294.8864858773
 21
11.1588739355
 31
0.0
  0
LINE
  5
DB
330
1F
100
AcDbEntity
  8
0
  6
Continuous
 62
     7
370
    25
100
AcDbLine
 10
249.8901416221
 20
-66.7855244205
 30
0.0
 11
305.6481462722
 21
-98.9739353554
 31
0.0
  0
SPLINE
  5
DC
330
1F
100
AcDbEntity
  8
0
  6
Continuous
 62
     7
370
    25
100
AcDbSpline
210
0.0
220
0.0
230
1.0
 70
     8
 71
     3
 72
    10
 73
     6
 74
     0
 42
0.000000001
 43
0.00000001
 40
0.0
 40
0.0
 40
0.0
 40
0.0
 40
0.3673847438209392
 40
0.8951074261467592
 40
1.0
 40
1.0
 40
1.0
 40
1.0
 10
353.0301523012173
 20
-22.72619820536586
 30
0.0
 10
352.7524637572104
 20
-22.4941626516492
 30
0.0
 10
352.0758948956095
 20
-21.92882413186818
 30
0.0
 10
351.2662910246819
 20
-21.37242041728062
 30
0.0
 10
350.7194642629044
 20
-21.08208346117756
 30
0.0
 10
350.6287960946386
 20
-21.0339433154683
 30
0.0
  0
SPLINE
  5
DD
330
1F
100
AcDbEntity
  8
0
  6
Continuous
 62
     7
370
    25
100
AcDbSpline
210
0.0
220
0.0
230
1.0
 70
     8
 71
     3
 72
    10
 73
     6
 74
     0
 42
0.000000001
 43
0.00000001
 40
0.0
 40
0.0
 40
0.0
 40
0.0
 40
0.3806110611717841
 40
0.8856881260083641
 40
1.0
 40
1.0
 40
1.0
 40
1.0
 10
305.5602674588748
 20
-98.9070793143683
 30
0.0
 10
305.8968434840448
 20
-99.09978671734909
 30
0.0
 10
306.6800613655073
 20
-99.54821997645755
 30
0.0
 10
307.6129453893315
 20
-99.97023803811719
 30
0.0
 10
308.2199041193953
 20
-100.1661070987692
 30
0.0
 10
308.3319219252031
 20
-100.2022558866737
 30
0.0
  0
LINE
  5
DE
330
1F
100
AcDbEntity
  8
0
  6
Continuous
 62
     7
370
    25
100
AcDbLine
 10
308.3254418472
 20
-100.2133290856
 30
0.0
 11
347.5036296681
 21
-114.2662325349
 31
0.0
  0
LINE
  5
DF
330
1F
100
AcDbEntity
  8
0
  6
Continuous
 62
     7
370
    25
100
AcDbLine
 10
384.8184328763
 20
-49.6280938302
 30
0.0
 11
353.0566429126
 21
-22.7282208739
 31
0.0
  0
LINE
  5
E0
330
1F
100
AcDbEntity
  8
0
  6
Continuous
 62
     7
370
    25
100
AcDbLine
 10
432.5581431599
 20
-76.9773016981
 30
0.0
 11
384.0383513452
 21
-48.9674220905
 31
0.0
  0
LINE
  5
E1
330
1F
100
AcDbEntity
  8
0
  6
Continuous
 62
     7
370
    25
100
AcDbLine
 10
346.5413986773
 20
-113.9210878942
 30
0.0
 11
395.061190492
 21
-141.9309675018
 31
0.0
  0
LWPOLYLINE
  5
E2
330
1F
100
AcDbEntity
  8
0
  6
Continuous
 62
     7
370
    25
100
AcDbPolyline
 90
      105
 70
   128
 43
0.0
 10
240.5685073319
 20
-46.1825084884
 10
240.6265619815
 20
-43.9304264678
 10
240.8005099279
 20
-41.6195357986
 10
241.0897189682
 20
-39.2582674833
 10
241.4931354312
 20
-36.8552365173
 10
242.0092815432
 20
-34.4192150813
 10
242.636279135
 20
-31.9590882477
 10
243.3718391061
 20
-29.4838338265
 10
244.2132745949
 20
-27.0024843439
 10
245.157519418
 20
-24.5240935833
 10
246.2011280707
 20
-22.0577031252
 10
247.3402888973
 20
-19.6123164925
 10
248.5708477991
 20
-17.1968535252
 10
249.8883135026
 20
-14.8201290877
 10
251.2878799498
 20
-12.4908158083
 10
252.7644394696
 20
-10.2174121409
 10
254.3126038509
 20
-8.0082149907
 10
255.9267254159
 20
-5.8712816925
 10
257.6009128255
 20
-3.8144148031
 10
259.3290587379
 20
-1.8451187578
 10
261.1048556138
 20
0.0294244632
 10
262.9218246924
 20
1.8023720623
 10
264.7733357475
 20
3.4672531225
 10
266.6526334295
 20
5.0179990233
 10
268.5528599853
 20
6.4489443893
 10
270.4670817644
 20
7.7548697686
 10
272.3883137497
 20
8.9310127525
 10
274.309545735
 20
9.973077003
 10
276.223767514
 20
10.8772650462
 10
278.1239940698
 20
11.6402745619
 10
280.0032917519
 20
12.2593195795
 10
281.854802807
 20
12.7321476811
 10
283.6717718855
 20
13.0570279265
 10
285.4475687614
 20
13.2327761367
 10
287.1757146738
 20
13.2587548913
 10
288.8499020834
 20
13.1348636405
 10
290.4640236485
 20
12.8615554328
 10
292.0121880297
 20
12.4398308298
 10
293.4887475496
 20
11.8712264964
 10
294.8883139968
 20
11.1578182415
 10
296.2057797002
 20
10.3022073274
 10
297.436338602
 20
9.3075174261
 10
298.5754994287
 20
8.177377888
 10
299.6191080813
 20
6.9159123327
 10
300.5633529045
 20
5.5277234393
 10
301.4047883932
 20
4.017874693
 10
302.1403483643
 20
2.3918797375
 10
302.7673459562
 20
0.6556689144
 10
303.2834920681
 20
-1.1844229054
 10
303.6869085312
 20
-3.1216791375
 10
303.9761175715
 20
-5.1490338023
 10
304.1500655178
 20
-7.2590884477
 10
304.2081201675
 20
-9.4441419965
 10
304.1500655178
 20
-11.6962240172
 10
303.9761175715
 20
-14.0071146864
 10
303.6869085312
 20
-16.3683830016
 10
303.2834920681
 20
-18.7714139677
 10
302.7673459562
 20
-21.2074354036
 10
302.1403483643
 20
-23.6675622372
 10
301.4047883932
 20
-26.1428166584
 10
300.5633529045
 20
-28.624166141
 10
299.6191080813
 20
-31.1025569016
 10
298.5754994287
 20
-33.5689473598
 10
297.436338602
 20
-36.0143339925
 10
296.2057797002
 20
-38.4297969597
 10
294.8883139968
 20
-40.8065213973
 10
293.4887475496
 20
-43.1358346767
 10
292.0121880297
 20
-45.409238344
 10
290.4640236485
 20
-47.6184354942
 10
288.8499020834
 20
-49.7553687925
 10
287.1757146738
 20
-51.8122356818
 10
285.4475687614
 20
-53.7815317271
 10
283.6717718855
 20
-55.6560749481
 10
281.854802807
 20
-57.4290225473
 10
280.0032917519
 20
-59.0939036075
 10
278.1239940698
 20
-60.6446495083
 10
276.223767514
 20
-62.0755948743
 10
274.309545735
 20
-63.3815202536
 10
272.3883137497
 20
-64.5576632374
 10
270.4670817644
 20
-65.599727488
 10
268.5528599853
 20
-66.5039155311
 10
266.6526334295
 20
-67.2669250468
 10
264.7733357475
 20
-67.8859700644
 10
262.9218246924
 20
-68.358798166
 10
261.1048556138
 20
-68.6836784114
 10
259.3290587379
 20
-68.8594266216
 10
257.6009128255
 20
-68.8854053762
 10
255.9267254159
 20
-68.7615141254
 10
254.3126038509
 20
-68.4882059178
 10
252.7644394696
 20
-68.0664813148
 10
251.2878799498
 20
-67.4978769814
 10
249.8883135026
 20
-66.7844687264
 10
248.5708477991
 20
-65.9288578123
 10
247.3402888973
 20
-64.934167911
 10
246.2011280707
 20
-63.8040283729
 10
245.157519418
 20
-62.5425628176
 10
244.2132745949
 20
-61.1543739242
 10
243.3718391061
 20
-59.6445251779
 10
242.636279135
 20
-58.0185302224
 10
242.0092815432
 20
-56.2823193994
 10
241.4931354312
 20
-54.4422275796
 10
241.0897189682
 20
-52.5049713474
 10
240.8005099279
 20
-50.4776166826
 10
240.6265619815
 20
-48.3675620373
 10
240.5685073319
 20
-46.1825084884
  0
LWPOLYLINE
  5
E3
330
1F
100
AcDbEntity
  8
0
  6
Continuous
 62
     7
370
    25
100
AcDbPolyline
 90
       95
 70
   128
 43
0.0
 10
246.3667836246
 20
-42.8352348333
 10
246.424893592
 20
-40.7946567496
 10
246.5989627105
 20
-38.6961008292
 10
246.8882112635
 20
-36.5489408447
 10
247.2913511379
 20
-34.3627642112
 10
247.8065779217
 20
-32.1473377645
 10
248.4315946116
 20
-29.9125541508
 10
249.1636089791
 20
-27.6683934231
 10
249.999349375
 20
-25.4248812171
 10
250.9350831689
 20
-23.1920355208
 10
251.9666338716
 20
-20.979830934
 10
253.0893916716
 20
-18.7981454372
 10
254.2983437281
 20
-16.6567246522
 10
255.5880899761
 20
-14.5651301329
 10
256.9528694683
 20
-12.5327074276
 10
258.3865880337
 20
-10.5685305681
 10
259.8828419856
 20
-8.6813731745
 10
261.4349470972
 20
-6.8796658715
 10
263.0359735047
 20
-5.1714518052
 10
264.6787700732
 20
-3.564360409
 10
266.3559986414
 20
-2.0655724256
 10
268.0601695824
 20
-0.6817780849
 10
269.7836707804
 20
0.5808396232
 10
271.5188049202
 20
1.7166386438
 10
273.2578225792
 20
2.7205521695
 10
274.992956719
 20
3.5880963843
 10
276.716457917
 20
4.3153908029
 10
278.420628858
 20
4.8991903494
 10
280.0978574261
 20
5.3368892514
 10
281.7406539947
 20
5.6265304001
 10
283.3416804022
 20
5.7668220774
 10
284.8937855138
 20
5.757137192
 10
286.3900394657
 20
5.5975178395
 10
287.8237580311
 20
5.2886772009
 10
289.1885375232
 20
4.8319953566
 10
290.4782837712
 20
4.2295101587
 10
291.6872358277
 20
3.4839157071
 10
292.8099936277
 20
2.5985387734
 10
293.8415443305
 20
1.5773372768
 10
294.7772781244
 20
0.4248668226
 10
295.6130185202
 20
-0.8537200614
 10
296.3450328877
 20
-2.2527149902
 10
296.9700495777
 20
-3.765869694
 10
297.4852763615
 20
-5.3864279583
 10
297.8884162359
 20
-7.1071492003
 10
298.1776647888
 20
-8.9203499141
 10
298.3517339074
 20
-10.8179299081
 10
298.4098438748
 20
-12.7914156516
 10
298.3517339074
 20
-14.8319937353
 10
298.1776647888
 20
-16.9305496557
 10
297.8884162359
 20
-19.0777096402
 10
297.4852763615
 20
-21.2638862737
 10
296.9700495777
 20
-23.4793127204
 10
296.3450328877
 20
-25.7140963342
 10
295.6130185202
 20
-27.9582570619
 10
294.7772781244
 20
-30.2017692678
 10
293.8415443305
 20
-32.4346149641
 10
292.8099936277
 20
-34.6468195509
 10
291.6872358277
 20
-36.8285050478
 10
290.4782837712
 20
-38.9699258327
 10
289.1885375232
 20
-41.061520352
 10
287.8237580311
 20
-43.0939430573
 10
286.3900394657
 20
-45.0581199168
 10
284.8937855138
 20
-46.9452773104
 10
283.3416804022
 20
-48.7469846134
 10
281.7406539947
 20
-50.4551986797
 10
280.0978574261
 20
-52.062290076
 10
278.420628858
 20
-53.5610780594
 10
276.716457917
 20
-54.9448724
 10
274.992956719
 20
-56.2074901081
 10
273.2578225792
 20
-57.3432891287
 10
271.5188049202
 20
-58.3472026544
 10
269.7836707804
 20
-59.2147468692
 10
268.0601695824
 20
-59.9420412878
 10
266.3559986414
 20
-60.5258408343
 10
264.6787700732
 20
-60.9635397364
 10
263.0359735047
 20
-61.2531808851
 10
261.4349470972
 20
-61.3934725623
 10
259.8828419856
 20
-61.3837876769
 10
258.3865880337
 20
-61.2241683245
 10
256.9528694683
 20
-60.9153276858
 10
255.5880899761
 20
-60.4586458416
 10
254.2983437281
 20
-59.8561606436
 10
253.0893916716
 20
-59.1105661921
 10
251.9666338716
 20
-58.2251892584
 10
250.9350831689
 20
-57.2039877618
 10
249.999349375
 20
-56.0515173075
 10
249.1636089791
 20
-54.7729304236
 10
248.4315946116
 20
-53.3739354947
 10
247.8065779217
 20
-51.860780791
 10
247.2913511379
 20
-50.2402225267
 10
246.8882112635
 20
-48.5195012846
 10
246.5989627105
 20
-46.7063005709
 10
246.424893592
 20
-44.8087205768
 10
246.3667836246
 20
-42.8352348333
  0
LINE
  5
E4
330
1F
100
AcDbEntity
  8
0
  6
Continuous
 62
     7
370
    25
100
AcDbLine
 10
384.8184328763
 20
-49.6280938302
 30
0.0
 11
384.9201727345
 21
-49.7151672522
 31
0.0
  0
LINE
  5
E5
330
1F
100
AcDbEntity
  8
0
  6
Continuous
 62
     7
370
    25
100
AcDbLine
 10
347.5566438181
 20
-114.2851175215
 30
0.0
 11
347.5036296681
 21
-114.2662325349
 31
0.0
  0
LWPOLYLINE
  5
E6
330
1F
100
AcDbEntity
  8
0
  6
Continuous
 62
     7
370
    25
100
AcDbPolyline
 90
       50
 70
   128
 43
0.0
 10
432.5581431599
 20
-76.9773016981
 10
433.0188911908
 20
-77.2566910886
 10
434.1849785852
 20
-78.0957005818
 10
435.261968859
 20
-79.0718352275
 10
436.2451560531
 20
-80.1808215431
 10
437.1302372377
 20
-81.4178126949
 10
437.9133414881
 20
-82.7774021888
 10
438.5910496412
 20
-84.253639082
 10
439.1603929785
 20
-85.8400736101
 10
439.6188848359
 20
-87.5297655554
 10
439.9645206038
 20
-89.3153264527
 10
440.1957856299
 20
-91.1889505785
 10
440.3116736583
 20
-93.1424420447
 10
440.3116736583
 20
-95.1672613754
 10
440.1957856299
 20
-97.2545543111
 10
439.9645206038
 20
-99.3951913525
 10
439.6188848359
 20
-101.5798148131
 10
439.1603929785
 20
-103.7988701892
 10
438.5910496412
 20
-106.0426545424
 10
437.9133414881
 20
-108.301356614
 10
437.1302372377
 20
-110.56509903
 10
436.2451560531
 20
-112.8239831658
 10
435.261968859
 20
-115.0681332531
 10
434.1849785852
 20
-117.287734401
 10
433.0188911908
 20
-119.4730797423
 10
431.7688064443
 20
-121.6146168208
 10
430.4401915824
 20
-123.702978007
 10
429.0388549675
 20
-125.7290322077
 10
427.570926332
 20
-127.6839206052
 10
426.0428212164
 20
-129.5590954382
 10
424.4612251646
 20
-131.3463565023
 10
422.8330522354
 20
-133.0378887888
 10
421.1654219535
 20
-134.626294042
 10
419.4656276993
 20
-136.1046272585
 10
417.7411004889
 20
-137.466426722
 10
415.9993824681
 20
-138.7057353887
 10
414.2480892513
 20
-139.8171347958
 10
412.4948790115
 20
-140.7957629056
 10
410.747418071
 20
-141.6373400534
 10
409.0133472336
 20
-142.338191425
 10
407.3002500511
 20
-142.8952501674
 10
405.6156161499
 20
-143.3060755172
 10
403.9668136555
 20
-143.568877846
 10
402.3610509959
 20
-143.682504208
 10
400.8053502313
 20
-143.6464598205
 10
399.3065134678
 20
-143.460900076
 10
397.8710958576
 20
-143.1266370035
 10
396.5053733297
 20
-142.645132041
 10
395.2153188829
 20
-142.0184914709
 10
395.061190492
 20
-141.9309675018
  0
LWPOLYLINE
  5
E7
330
1F
100
AcDbEntity
  8
0
  6
Continuous
 62
     1
370
    25
100
AcDbPolyline
 90
       54
 70
   128
 43
0.0
 10
350.6444905274
 20
-21.0295369994
 10
350.6463186469
 20
-21.0305926934
 10
351.9637843503
 20
-21.8862036076
 10
353.1943432521
 20
-22.8808935088
 10
354.3335040787
 20
-24.0110330469
 10
355.3771127314
 20
-25.2724986022
 10
356.3213575546
 20
-26.6606874956
 10
357.1627930433
 20
-28.1705362419
 10
357.8983530144
 20
-29.7965311975
 10
358.5253506063
 20
-31.5327420205
 10
359.0414967182
 20
-33.3728338403
 10
359.4449131813
 20
-35.3100900724
 10
359.7341222216
 20
-37.3374447373
 10
359.9080701679
 20
-39.4474993826
 10
359.9661248176
 20
-41.6325529314
 10
359.9080701679
 20
-43.8846349521
 10
359.7341222216
 20
-46.1955256213
 10
359.4449131813
 20
-48.5567939365
 10
359.0414967182
 20
-50.9598249026
 10
358.5253506063
 20
-53.3958463385
 10
357.8983530144
 20
-55.8559731721
 10
357.1627930433
 20
-58.3312275933
 10
356.3213575546
 20
-60.8125770759
 10
355.3771127314
 20
-63.2909678366
 10
354.3335040787
 20
-65.7573582947
 10
353.1943432521
 20
-68.2027449274
 10
351.9637843503
 20
-70.6182078947
 10
350.6463186469
 20
-72.9949323322
 10
349.2467521997
 20
-75.3242456116
 10
347.7701926798
 20
-77.5976492789
 10
346.2220282985
 20
-79.8068464291
 10
344.6079067335
 20
-81.9437797274
 10
342.9337193239
 20
-84.0006466167
 10
341.2055734115
 20
-85.969942662
 10
339.4297765356
 20
-87.844485883
 10
337.6128074571
 20
-89.6174334822
 10
335.761296402
 20
-91.2823145424
 10
333.8819987199
 20
-92.8330604432
 10
331.9817721641
 20
-94.2640058092
 10
330.0675503851
 20
-95.5699311885
 10
328.1463183998
 20
-96.7460741723
 10
326.2250864145
 20
-97.7881384229
 10
324.3108646354
 20
-98.692326466
 10
322.4106380796
 20
-99.4553359817
 10
320.5313403976
 20
-100.0743809993
 10
318.6798293425
 20
-100.5472091009
 10
316.8628602639
 20
-100.8720893463
 10
315.087063388
 20
-101.0478375565
 10
313.3589174756
 20
-101.0738163111
 10
311.684730066
 20
-100.9499250603
 10
310.070608501
 20
-100.6766168527
 10
308.5224441197
 20
-100.2548922497
 10
307.0458845999
 20
-99.6862879163
 10
305.6481462722
 20
-98.9739353554
  0
LWPOLYLINE
  5
E8
330
1F
100
AcDbEntity
  8
0
  6
Continuous
 62
     1
370
    25
100
AcDbPolyline
 90
       51
 70
   128
 43
0.0
 10
353.0405191089
 20
-22.7145827404
 10
353.3882569509
 20
-23.0172309308
 10
354.5268804052
 20
-24.1468365735
 10
355.5699938324
 20
-25.4077058794
 10
356.5137908453
 20
-26.7952392118
 10
357.3548312073
 20
-28.304371565
 10
358.0900408327
 20
-29.9295984201
 10
358.7167433967
 20
-31.6649879155
 10
359.2326471642
 20
-33.5042089826
 10
359.6358686981
 20
-35.44055112
 10
359.9249433953
 20
-37.4669456879
 10
360.0988096821
 20
-39.5760020279
 10
360.1568353558
 20
-41.7600230555
 10
360.0988096821
 20
-44.0110391
 10
359.9249433953
 20
-46.3208371818
 10
359.6358686981
 20
-48.6809902908
 10
359.2326471642
 20
-51.0828821018
 10
358.7167433967
 20
-53.5177529801
 10
358.0900408327
 20
-55.9767178541
 10
357.3548312073
 20
-58.4507996744
 10
356.5137908453
 20
-60.9309765603
 10
355.5699938324
 20
-63.4081947292
 10
354.5268804052
 20
-65.8734171628
 10
353.3882569509
 20
-68.3176494632
 10
352.1582802024
 20
-70.7319687489
 10
350.841436165
 20
-73.1075692806
 10
349.4425322135
 20
-75.4357822324
 10
347.966672068
 20
-77.7081099103
 10
346.4192386711
 20
-79.9162645345
 10
344.8058810177
 20
-82.0521849679
 10
343.1324851786
 20
-84.1080777786
 10
341.4051571785
 20
-86.0764453754
 10
339.6302006054
 20
-87.9500989337
 10
337.8140902688
 20
-89.7222101042
 10
335.9634544194
 20
-91.3863060686
 10
334.0850457724
 20
-92.9363136434
 10
332.1857178006
 20
-94.3665851334
 10
330.2724013557
 20
-95.6718935771
 10
328.3520779971
 20
-96.8474785615
 10
326.4317546386
 20
-97.8890517334
 10
324.5184381936
 20
-98.7928114357
 10
322.6191102218
 20
-99.5554573443
 10
320.7407015748
 20
-100.1742142299
 10
318.8900657254
 20
-100.6468169364
 10
317.0739553889
 20
-100.9715421279
 10
315.2989988158
 20
-101.1472098079
 10
313.5716708156
 20
-101.1731726695
 10
311.8982749765
 20
-101.0493415696
 10
310.2849173231
 20
-100.7761642332
 10
308.7374839263
 20
-100.3546381796
 10
308.3268063515
 20
-100.2138189518
  0
LWPOLYLINE
  5
E9
330
1F
100
AcDbEntity
  8
0
  6
Continuous
 62
     1
370
    25
100
AcDbPolyline
 90
       46
 70
   128
 43
0.0
 10
384.9201727345
 20
-49.7151672522
 10
385.6743418563
 20
-50.4212357967
 10
386.6580848619
 20
-51.5308533487
 10
387.5436691745
 20
-52.7685456944
 10
388.327218601
 20
-54.1289063395
 10
389.0053113441
 20
-55.6059812989
 10
389.5749786853
 20
-57.193315485
 10
390.0337313263
 20
-58.883965638
 10
390.3795620234
 20
-60.6705410111
 10
390.6109587584
 20
-62.5452280862
 10
390.7269126412
 20
-64.4998281234
 10
390.7269126412
 20
-66.5257965136
 10
390.6109587584
 20
-68.6142740541
 10
390.3795620234
 20
-70.7561261128
 10
390.0337313263
 20
-72.9419891096
 10
389.5749786853
 20
-75.1623037877
 10
389.0053113441
 20
-77.4073618859
 10
388.327218601
 20
-79.6673460619
 10
387.5436691745
 20
-81.9323736184
 10
386.6580848619
 20
-84.1925398474
 10
385.6743418563
 20
-86.4379628974
 10
384.5967391361
 20
-88.6588240748
 10
383.4299905629
 20
-90.8454089087
 10
382.1791959055
 20
-92.9881619007
 10
380.8498276686
 20
-95.0777078174
 10
379.447695532
 20
-97.1049132842
 10
377.9789331791
 20
-99.060909598
 10
376.449961419
 20
-100.9371505186
 10
374.867467771
 20
-102.7254255757
 10
373.2383709039
 20
-104.4179170994
 10
371.5697942935
 20
-106.0072245531
 10
369.8690352716
 20
-107.4863976104
 10
368.1435294641
 20
-108.8489688519
 10
366.400822968
 20
-110.0889789528
 10
364.6485358841
 20
-111.2010099024
 10
362.8943306246
 20
-112.1801911318
 10
361.1458779984
 20
-113.022249512
 10
359.4108232956
 20
-113.7234985135
 10
357.6967534427
 20
-114.2808723764
 10
356.0111639935
 20
-114.6919329998
 10
354.3614250488
 20
-114.954883531
 10
352.7547516222
 20
-115.0685733062
 10
351.1981670908
 20
-115.0325067824
 10
349.6984808049
 20
-114.8468412538
 10
348.2622479166
 20
-114.5123902704
 10
347.5566438181
 20
-114.2851175215
  0
LWPOLYLINE
  5
EA
330
1F
100
AcDbEntity
  8
0
  6
Continuous
 62
     1
370
    25
100
AcDbPolyline
 90
       48
 70
   128
 43
0.0
 10
384.4351230942
 20
-49.3034597706
 10
384.7909360089
 20
-49.5811267523
 10
385.8679262827
 20
-50.557261398
 10
386.8511134768
 20
-51.6662477136
 10
387.7361946614
 20
-52.9032388653
 10
388.5192989118
 20
-54.2628283593
 10
389.1970070649
 20
-55.7390652525
 10
389.7663504022
 20
-57.3254997806
 10
390.2248422596
 20
-59.0151917259
 10
390.5704780275
 20
-60.8007526232
 10
390.8017430536
 20
-62.674376749
 10
390.917631082
 20
-64.6278682152
 10
390.917631082
 20
-66.6526875459
 10
390.8017430536
 20
-68.7399804816
 10
390.5704780275
 20
-70.880617523
 10
390.2248422596
 20
-73.0652409836
 10
389.7663504022
 20
-75.2842963596
 10
389.1970070649
 20
-77.5280807129
 10
388.5192989118
 20
-79.7867827845
 10
387.7361946614
 20
-82.0505252005
 10
386.8511134768
 20
-84.3094093363
 10
385.8679262827
 20
-86.5535594236
 10
384.7909360089
 20
-88.7731605715
 10
383.6248486145
 20
-90.9585059128
 10
382.374763868
 20
-93.1000429913
 10
381.0461490061
 20
-95.1884041775
 10
379.6448123912
 20
-97.2144583782
 10
378.1768837557
 20
-99.1693467757
 10
376.6487786401
 20
-101.0445216087
 10
375.0671825883
 20
-102.8317826728
 10
373.4390096592
 20
-104.5233149592
 10
371.7713793772
 20
-106.1117202125
 10
370.071585123
 20
-107.590053429
 10
368.3470579126
 20
-108.9518528925
 10
366.6053398918
 20
-110.1911615592
 10
364.8540466751
 20
-111.3025609663
 10
363.1008364352
 20
-112.2811890761
 10
361.3533754947
 20
-113.1227662239
 10
359.6193046574
 20
-113.8236175955
 10
357.9062074748
 20
-114.3806763379
 10
356.2215735736
 20
-114.7915016877
 10
354.5727710792
 20
-115.0543040165
 10
352.9670084196
 20
-115.1679303785
 10
351.411307655
 20
-115.131885991
 10
349.9124708915
 20
-114.9463262465
 10
348.4770532813
 20
-114.612063174
 10
347.1113307534
 20
-114.1305582115
 10
347.0308171019
 20
-114.0966385745
  0
ENDSEC
  0
SECTION
  2
OBJECTS
  0
DICTIONARY
  5
C
330
0
100
AcDbDictionary
281
     1
  3
ACAD_GROUP
350
D
  3
ACAD_LAYOUT
350
1A
  3
ACAD_MLINESTYLE
350
17
  3
ACAD_PLOTSETTINGS
350
19
  3
ACAD_PLOTSTYLENAME
350
E
  3
ACAD_SCALELIST
350
47
  0
DICTIONARY
  5
D
102
{ACAD_REACTORS
330
C
102
}
330
C
100
AcDbDictionary
281
     1
  0
DICTIONARY
  5
1A
102
{ACAD_REACTORS
330
C
102
}
330
C
100
AcDbDictionary
281
     1
  3
Layout1
350
1E
  3
Layout2
350
26
  3
Model
350
22
  0
DICTIONARY
  5
17
102
{ACAD_REACTORS
330
C
102
}
330
C
100
AcDbDictionary
281
     1
  3
Standard
350
18
  0
DICTIONARY
  5
19
102
{ACAD_REACTORS
330
C
102
}
330
C
100
AcDbDictionary
281
     1
  0
ACDBDICTIONARYWDFLT
  5
E
102
{ACAD_REACTORS
330
C
102
}
330
C
100
AcDbDictionary
281
     1
  3
Normal
350
F
100
AcDbDictionaryWithDefault
340
F
  0
DICTIONARY
  5
47
102
{ACAD_REACTORS
330
C
102
}
330
C
100
AcDbDictionary
281
     1
  3
A0
350
48
  3
A1
350
49
  3
A2
350
4A
  3
A3
350
4B
  3
A4
350
4C
  3
A5
350
4D
  3
A6
350
4E
  3
A7
350
4F
  3
A8
350
50
  3
A9
350
51
  3
B0
350
52
  3
B1
350
53
  3
B2
350
54
  3
B3
350
55
  3
B4
350
56
  3
B5
350
57
  3
B6
350
58
  3
B7
350
59
  3
B8
350
5A
  3
B9
350
5B
  3
C0
350
5C
  3
C1
350
5D
  3
C2
350
5E
  3
C3
350
5F
  3
C4
350
60
  3
C5
350
61
  3
C6
350
62
  3
C7
350
63
  3
C8
350
64
  3
C9
350
65
  3
D0
350
66
  3
D1
350
67
  3
D2
350
68
  0
LAYOUT
  5
1E
102
{ACAD_REACTORS
330
1A
102
}
330
1A
100
AcDbPlotSettings
  1

  2
none_device
  4

  6

 40
0.0
 41
0.0
 42
0.0
 43
0.0
 44
0.0
 45
0.0
 46
0.0
 47
0.0
 48
0.0
 49
0.0
140
0.0
141
0.0
142
1.0
143
1.0
 70
   688
 72
     1
 73
     0
 74
     5
  7

 75
    16
147
1.0
148
0.0
149
0.0
100
AcDbLayout
  1
Layout1
 70
     1
 71
     1
 10
0.0
 20
0.0
 11
420.0
 21
297.0
 12
0.0
 22
0.0
 32
0.0
 14
1.0000000000E+20
 24
1.0000000000E+20
 34
1.0000000000E+20
 15
-1.0000000000E+20
 25
-1.0000000000E+20
 35
-1.0000000000E+20
146
0.0
 13
0.0
 23
0.0
 33
0.0
 16
1.0
 26
0.0
 36
0.0
 17
0.0
 27
1.0
 37
0.0
 76
     0
330
1B
  0
LAYOUT
  5
26
102
{ACAD_REACTORS
330
1A
102
}
330
1A
100
AcDbPlotSettings
  1

  2
none_device
  4

  6

 40
0.0
 41
0.0
 42
0.0
 43
0.0
 44
0.0
 45
0.0
 46
0.0
 47
0.0
 48
0.0
 49
0.0
140
0.0
141
0.0
142
1.0
143
1.0
 70
   688
 72
     1
 73
     0
 74
     5
  7

 75
    16
147
1.0
148
0.0
149
0.0
100
AcDbLayout
  1
Layout2
 70
     1
 71
     2
 10
0.0
 20
0.0
 11
0.0
 21
0.0
 12
0.0
 22
0.0
 32
0.0
 14
0.0
 24
0.0
 34
0.0
 15
0.0
 25
0.0
 35
0.0
146
0.0
 13
0.0
 23
0.0
 33
0.0
 16
1.0
 26
0.0
 36
0.0
 17
0.0
 27
1.0
 37
0.0
 76
     0
330
23
  0
LAYOUT
  5
22
102
{ACAD_REACTORS
330
1A
102
}
330
1A
100
AcDbPlotSettings
  1

  2
none_device
  4
Letter_(8.50_x_11.00_Inches)
  6

 40
6.35
 41
6.35
 42
6.35000508
 43
6.35000508
 44
215.9
 45
279.4
 46
0.0
 47
0.0
 48
0.0
 49
0.0
140
0.0
141
0.0
142
1.0
143
1.0
 70
  1712
 72
     1
 73
     0
 74
     0
  7

 75
     0
147
1.0
148
0.0
149
0.0
100
AcDbLayout
  1
Model
 70
     1
 71
     0
 10
0.0
 20
0.0
 11
279.4
 21
215.9
 12
0.0
 22
0.0
 32
0.0
 14
0.0
 24
0.0
 34
0.0
 15
279.4
 25
215.9
 35
0.0
146
0.0
 13
0.0
 23
0.0
 33
0.0
 16
1.0
 26
0.0
 36
0.0
 17
0.0
 27
1.0
 37
0.0
 76
     0
330
1F
331
29
  0
MLINESTYLE
  5
18
102
{ACAD_REACTORS
330
17
102
}
330
17
100
AcDbMlineStyle
  2
Standard
 70
     0
  3

 62
   256
 51
90.0
 52
90.0
 71
     2
 49
0.5
 62
   256
  6
BYLAYER
 49
-0.5
 62
   256
  6
BYLAYER
  0
ACDBPLACEHOLDER
  5
F
102
{ACAD_REACTORS
330
E
102
}
330
E
  0
SCALE
  5
48
102
{ACAD_REACTORS
330
47
102
}
330
47
100
AcDbScale
 70
     0
300
1:1
140
1.0
141
1.0
290
     1
  0
SCALE
  5
49
102
{ACAD_REACTORS
330
47
102
}
330
47
100
AcDbScale
 70
     0
300
1:2
140
1.0
141
2.0
290
     0
  0
SCALE
  5
4A
102
{ACAD_REACTORS
330
47
102
}
330
47
100
AcDbScale
 70
     0
300
1:4
140
1.0
141
4.0
290
     0
  0
SCALE
  5
4B
102
{ACAD_REACTORS
330
47
102
}
330
47
100
AcDbScale
 70
     0
300
1:5
140
1.0
141
5.0
290
     0
  0
SCALE
  5
4C
102
{ACAD_REACTORS
330
47
102
}
330
47
100
AcDbScale
 70
     0
300
1:8
140
1.0
141
8.0
290
     0
  0
SCALE
  5
4D
102
{ACAD_REACTORS
330
47
102
}
330
47
100
AcDbScale
 70
     0
300
1:10
140
1.0
141
10.0
290
     0
  0
SCALE
  5
4E
102
{ACAD_REACTORS
330
47
102
}
330
47
100
AcDbScale
 70
     0
300
1:16
140
1.0
141
16.0
290
     0
  0
SCALE
  5
4F
102
{ACAD_REACTORS
330
47
102
}
330
47
100
AcDbScale
 70
     0
300
1:20
140
1.0
141
20.0
290
     0
  0
SCALE
  5
50
102
{ACAD_REACTORS
330
47
102
}
330
47
100
AcDbScale
 70
     0
300
1:30
140
1.0
141
30.0
290
     0
  0
SCALE
  5
51
102
{ACAD_REACTORS
330
47
102
}
330
47
100
AcDbScale
 70
     0
300
1:40
140
1.0
141
40.0
290
     0
  0
SCALE
  5
52
102
{ACAD_REACTORS
330
47
102
}
330
47
100
AcDbScale
 70
     0
300
1:50
140
1.0
141
50.0
290
     0
  0
SCALE
  5
53
102
{ACAD_REACTORS
330
47
102
}
330
47
100
AcDbScale
 70
     0
300
1:100
140
1.0
141
100.0
290
     0
  0
SCALE
  5
54
102
{ACAD_REACTORS
330
47
102
}
330
47
100
AcDbScale
 70
     0
300
2:1
140
2.0
141
1.0
290
     0
  0
SCALE
  5
55
102
{ACAD_REACTORS
330
47
102
}
330
47
100
AcDbScale
 70
     0
300
4:1
140
4.0
141
1.0
290
     0
  0
SCALE
  5
56
102
{ACAD_REACTORS
330
47
102
}
330
47
100
AcDbScale
 70
     0
300
8:1
140
8.0
141
1.0
290
     0
  0
SCALE
  5
57
102
{ACAD_REACTORS
330
47
102
}
330
47
100
AcDbScale
 70
     0
300
10:1
140
10.0
141
1.0
290
     0
  0
SCALE
  5
58
102
{ACAD_REACTORS
330
47
102
}
330
47
100
AcDbScale
 70
     0
300
100:1
140
100.0
141
1.0
290
     0
  0
SCALE
  5
59
102
{ACAD_REACTORS
330
47
102
}
330
47
100
AcDbScale
 70
     0
300
1/128" = 1'-0"
140
0.0078125
141
12.0
290
     0
  0
SCALE
  5
5A
102
{ACAD_REACTORS
330
47
102
}
330
47
100
AcDbScale
 70
     0
300
1/64" = 1'-0"
140
0.015625
141
12.0
290
     0
  0
SCALE
  5
5B
102
{ACAD_REACTORS
330
47
102
}
330
47
100
AcDbScale
 70
     0
300
1/32" = 1'-0"
140
0.03125
141
12.0
290
     0
  0
SCALE
  5
5C
102
{ACAD_REACTORS
330
47
102
}
330
47
100
AcDbScale
 70
     0
300
1/16" = 1'-0"
140
0.0625
141
12.0
290
     0
  0
SCALE
  5
5D
102
{ACAD_REACTORS
330
47
102
}
330
47
100
AcDbScale
 70
     0
300
3/32" = 1'-0"
140
0.09375
141
12.0
290
     0
  0
SCALE
  5
5E
102
{ACAD_REACTORS
330
47
102
}
330
47
100
AcDbScale
 70
     0
300
1/8" = 1'-0"
140
0.125
141
12.0
290
     0
  0
SCALE
  5
5F
102
{ACAD_REACTORS
330
47
102
}
330
47
100
AcDbScale
 70
     0
300
3/16" = 1'-0"
140
0.1875
141
12.0
290
     0
  0
SCALE
  5
60
102
{ACAD_REACTORS
330
47
102
}
330
47
100
AcDbScale
 70
     0
300
1/4" = 1'-0"
140
0.25
141
12.0
290
     0
  0
SCALE
  5
61
102
{ACAD_REACTORS
330
47
102
}
330
47
100
AcDbScale
 70
     0
300
3/8" = 1'-0"
140
0.375
141
12.0
290
     0
  0
SCALE
  5
62
102
{ACAD_REACTORS
330
47
102
}
330
47
100
AcDbScale
 70
     0
300
1/2" = 1'-0"
140
0.5
141
12.0
290
     0
  0
SCALE
  5
63
102
{ACAD_REACTORS
330
47
102
}
330
47
100
AcDbScale
 70
     0
300
3/4" = 1'-0"
140
0.75
141
12.0
290
     0
  0
SCALE
  5
64
102
{ACAD_REACTORS
330
47
102
}
330
47
100
AcDbScale
 70
     0
300
1" = 1'-0"
140
1.0
141
12.0
290
     0
  0
SCALE
  5
65
102
{ACAD_REACTORS
330
47
102
}
330
47
100
AcDbScale
 70
     0
300
1-1/2" = 1'-0"
140
1.5
141
12.0
290
     0
  0
SCALE
  5
66
102
{ACAD_REACTORS
330
47
102
}
330
47
100
AcDbScale
 70
     0
300
3" = 1'-0"
140
3.0
141
12.0
290
     0
  0
SCALE
  5
67
102
{ACAD_REACTORS
330
47
102
}
330
47
100
AcDbScale
 70
     0
300
6" = 1'-0"
140
6.0
141
12.0
290
     0
  0
SCALE
  5
68
102
{ACAD_REACTORS
330
47
102
}
330
47
100
AcDbScale
 70
     0
300
1'-0" = 1'-0"
140
12.0
141
12.0
290
     0
  0
ENDSEC
  0
EOF
